• My Info

    Name:Daniel
    Nickname:Meester
    Lives In:New York
    United States
    Gender:Male
    Relationship:It's Complicated
    Heroes:bam margera, peter forsburgh, rodney mullen.
    Music:fall out boy, greenday, him, cky, elvis presley, metalica, panic at the disco, linkin park.
    Movies:batman begins, batman the dark night, cky 4
    Shows:jackass,dirty jobs, viva la bam, mail call
  • My Sports

    BMX

    Skill Level: Beginner
    10+ Years Experience
  • My Friends

    skaterboy360 is friends with 270 GrindTV users.

  • About







    .
    hit reply add video, then dont hit send, copy the video then paste it on ur grind box





















    use this as ur song msg thing.
    hit reply add video, then dont hit send, copy the video then paste it on ur grind box






















    Children Of Bodom
    In Your Face
    Tuning: CGCFAD
    Legend:
    .=palm mute
    b=bend up
    *=pinch harmonic (guitar squeel)

    READ FIRST
    I tabbed this out by ear. I cannot stress enough the importance of the tuning and palm muting.
    Thank you.

    Intro:G1
    D|----------------|----------------|
    A|----------------|----------------|
    F|----------------|----------------|
    C|----------------|----------------|
    G|-0000-000000-00-|-0000-0-0-00000-|
    C|-0000-000000-00-|-0000-0-0-00000-| x2
    .... ...... .. .... . . .....
    ----------------------------------------------------------------------------
    Drums come In

    G1
    D|----------------|----------------|
    A|----------------|----------------|
    F|----------------|----------------|
    C|----------------|----------------|
    G|-0000-000000-00-|-0000-0-0-00000-|
    C|-0000-000000-00-|-0000-0-0-00000-| x2
    .... ...... .. .... . . .....
    ----------------------------------------------------------------------------
    GO!

    G1+G2
    D|---------------|----------------|
    A|---------------|----------------|
    F|---------------|----------------|
    C|---------------|----------------|
    G|-0000-00000-00-|-0000-0-0-00000-|
    C|-0000-00000-00-|-0000-0-0-00000-| x2
    .... ..... .. .... . . .....
    ----------------------------------------------------------------------------
    Synth Comes In

    G1+G2
    D|----------------|----------------|
    A|----------------|----------------|
    F|----------------|----------------|
    C|----------------|----------------|
    G|-0000-000000-00-|-0000-0-0-00000-|
    C|-0000-000000-00-|-0000-0-0-00000-| x2
    .... ...... .. .... . . .....
    ----------------------------------------------------------------------------
    G1
    D|----------------|----------------|---------------|----------------|
    A|----------------|----------------|---------------|----------------|
    F|----------------|----------------|---------------|----------------|
    C|----------------|----------------|---------------|----------------|
    G|-0000-000000-00-|-0000-0-0-00000-|-0000-00000-00-|-0000-0-0-00000-|
    C|-0000-000000-00-|-0000-0-0-00000-|-0000-00000-00-|-0000-0-0-00000-|
    .... ...... .. .... . . ..... .... ..... .. .... . . .....
    G2
    D|----------------|----------------|---------------|----------------|
    A|----------------|----------------|---------------|----------------|
    F|----------------|----------------|---------------|----------------|
    C|-0-------7------|-8------10------|-0------7------|-8------1-------|
    G|-0-------7------|-8------10------|-0------7------|-8------1-------|
    C|-0-------7------|-8------10------|-0------7------|-8------1-------|

    ----------------------------------------------------------------------------
    BREAKDOWN

    G1
    D|-------------------|---------|----------|
    A|-------------------|---------|----------|
    F|-------------------|---------|-------47-|
    C|-------------------|---------|-----36---|
    G|-6-3-5-0-6-3-55-00-|-6-3-5-2-|---25-----|
    C|-6-3-5-0-6-3-55-00-|-6-3-5-2-|-36-------|
    . . . . . . .. .. . . . .

    G2
    D|-------------------|---------|------------|
    A|-------------------|---------|------------|
    F|-------------------|---------|-------7-10-|
    C|-------------------|---------|-----69-----|
    G|-6-3-5-0-6-3-55-00-|-6-3-5-2-|---58-------|
    C|-6-3-5-0-6-3-55-00-|-6-3-5-2-|-69---------|
    . . . . . . .. .. . . . .
    ----------------------------------------------------------------------------
    BREAKDOWN CONTINUED

    G1+G2
    D|-------------------|---------|-----|
    A|-------------------|---------|-----|
    F|-------------------|---------|-----|
    C|-------------------|---------|-----|
    G|-6-3-5-0-6-3----00-|-6-3-5-2-|-0-0-|
    C|-6-3-5-0-6-3-5b-00-|-6-3-5-2-|-0-0-|
    . . . . . . .. . . . . . .
    ----------------------------------------------------------------------------
    BREAKDOWN CONTINUED

    G1
    D|-------------------|---------|----------|
    A|-------------------|---------|----------|
    F|-------------------|---------|-------47-|
    C|-------------------|---------|-----36---|
    G|-6-3-5-0-6-3-55-00-|-6-3-5-2-|---25-----|
    C|-6-3-5-0-6-3-55-00-|-6-3-5-2-|-36-------|
    . . . . . . .. .. . . . .

    G2
    D|-------------------|---------|------------|
    A|-------------------|---------|------------|
    F|-------------------|---------|-------7-10-|
    C|-------------------|---------|-----69-----|
    G|-6-3-5-0-6-3-55-00-|-6-3-5-2-|---58-------|
    C|-6-3-5-0-6-3-55-00-|-6-3-5-2-|-69---------|
    . . . . . . .. .. . . . .
    ----------------------------------------------------------------------------
    BREAKDOWN CONTINUED

    G1+G2
    D|-------------------|---------|-----|
    A|-------------------|---------|-----|
    F|-------------------|---------|-----|
    C|-------------------|---------|-----|
    G|-6-3-5-0-6-3----00-|-6-3-5-2-|-0-0-|
    C|-6-3-5-0-6-3-5b-00-|-6-3-5-2-|-0-0-|
    . . . . . . .. . . . . . .
    ----------------------------------------------------------------------------
    G1
    D|-----|
    A|-----|
    F|-----|
    C|-3*b-|
    G|-----|
    C|-----|

    G2
    D|-----|
    A|-----|
    F|-7*b-|
    C|-----|
    G|-----|
    C|-----|
    ----------------------------------------------------------------------------
    VERSE

    G1
    D|------------------|------------------|-------------------|----------------------|
    A|------------------|------------------|-------------------|----------------------|
    F|------------------|-------------5-4 -|-------------------|----------------------|
    C|------------------|-------------3-2 -|-------------------|-7-------7---10-9-10 -|
    G|-5-------5---535 -|-5-------5--------|-5-------5---3010 -|----------------------|
    C|--000-000-000-----|--000-000-000-----|--000-000-000------|--777-777-777---------|
    ... ... ... ... ... ... ... ... ... ... ... ...

    G2
    D|------------------|------------------|-------------------|-------------------|
    A|------------------|------------------|-------------------|-------------------|
    F|------------------|-------------7-5 -|-------------------|--------------979 -|
    C|------------------|-------------5-3 -|-------------------|-7-------10--------|
    G|-5-------5---878 -|-5-------5--------|-5-------5---3010 -|-------------------|
    C|--000-000-000-----|--000-000-000-----|--000-000-000------|--777-777--777-----|
    ... ... ... ... ... ... ... ... ... ... ... ...

    G1
    D|------------------|-------------------|-------------------|----------------------|
    A|------------------|-------------------|-------------------|----------------------|
    F|------------------|-------------------|-------------------|----------------------|
    C|------------------|------------7-6-5 -|-------------------|-7-------7---10-9-10 -|
    G|-5-------5---535 -|-5-------55-5-4-3 -|-5-------5---3010 -|----------------------|
    C|--000-000-000-----|--000-000----------|--000-000-000------|--777-777-777---------|
    ... ... ... ... ... ... ... ... ... ... ...

    G2
    D|------------------|-------------------|-------------------|-------------------|
    A|------------------|-------------------|-------------------|-------------------|
    F|------------------|-------------------|-------------------|--------------979 -|
    C|------------------|------------3-2-1 -|-------------------|-7-------10--------|
    G|-5-------5---878 -|-5-------55-5-4-3 -|-5-------5---3010 -|-------------------|
    C|--000-000-000-----|--000-000----------|--000-000-000------|--777-777--777-----|
    ... ... ... ... ... ... ... ... ... ... ...
    -------------------------------------------------------------------------------
    BRIDGE TO CHORUS

    G1
    D|-----------|-----------|-------------------|-----------|-----------|------------------|
    A|-----------|-----------|-------------------|-----------|-----------|------------------|
    F|-----------|-----------|-------------------|-----------|-----------|------------------|
    C|-----------|-----------|-------------------|-----------|-----------|-------------8-7 -|
    G|--------5--|--5-7-8----|-5-7-8---8-10-8753-|--------5--|--5-7-8----|-5-7-8-------8-7 -|
    C|-88-10-8-8-|-8-8-8-8-8-|--0-0-0-0-0--0-----|-88-10-8-8-|-8-8-8-8-8-|--0-0-0-0023-8-7 -|
    . . . . . . . . . ....

    G2
    D|--------|------------|------------------------|--------------------|--------------------|
    A|--------|------------|------------------------|--------------------|--------------------|
    F|--------|------------|------------------------|--------------------|--------------------|
    C|--------|------------|------------------------|--------------------|---------------8-7 -|
    G|---7-8--|--8-10-7----|-8-10-7---12-13-12-10-8-|-5-7-8---8-10-12----|-8-10-12-------8-7 -|
    C|-88-8-8-|-8-8--8-8-8-|--0--0-0-0--0--0--------|--8-8-8-8-8--8--8-8-|--0--0--0-0023-8-7 -|
    . . . . . . . . . ....
    ---------------------------------------------------------------------------------
    Repeat All of Breakdown
    ---------------------------------------------------------------------------------
    Repeat Verse
    ---------------------------------------------------------------------------------
    Repeat Intro
    ---------------------------------------------------------------------------------
    Chorus (same as Intro)
    ---------------------------------------------------------------------------------
    I don't know the solo, so after the chorus, do bridge, breakdown, intro.

    I'm not sure how many times you do each measure but i think its all correct,
    listen to the song and you'll have better judgemetn If There Was A Single Day I Could Live,
    A Single Breath I Could Take,
    I'd Trade All The Others Away.

    The Blood's On The Wall,
    So You Might As Well Just Admit It.
    And Bleach Out The Stains,
    Commit To Forgetting It.
    You're Better Off Empty And Blank,
    Then Left With A Single Pathetic Trace Of This.

    Smother Another Failure
    Lay This To Rest

    console Yourself,
    You're Better Alone,
    Destroy Yourself,
    See Who Gives A ****.

    Adorb Yourself,
    You're Better Alone,
    Destroy Yourself.

    I'll Chain You To The Truth,
    For The Truth Shall Set You Free.
    I'll Turn The Screws Of Vengeance,
    And Bury You With Honesty.

    I'll Make All Your Dreams Come To Life,
    And Slay Them As Quickly As They Came,

    Smother Another Failure
    Lay This To Rest
    console Yourself,
    You're Better Alone,
    Destroy Yourself,
    See Who Gives A ****.

    Absorb Yourself,
    You're Better Alone,
    Destroy Yourself.

    See Who Gives A ****

    FAILURE
    If There Was A Day I Could Live,
    If There Was A Single Breath I Could Take,
    I'd Trade All The Others Away,
    I'd Trade All The Others Away.
    Don't hear, don't deem
    Drowning before you dive
    Don't care, commit
    To your self destruction drive
    I kiss the ground
    With love beyond forever
    Flip off the sky
    With bleeding fingers till I die

    Enemy, take one good look at me
    eradicate what you will always be
    Tainted flesh, polluted soul
    Through a mirror I behold
    Throw a punch
    Shards bleed on the floor
    Tearing me apart but
    I don't care anymore
    Should I regret or ask myself
    Are you dead yet?

    Wake up, don't cry
    Regenerate to deny
    The truth, the fiction
    You live in blindfold on your eyes
    Disclosure, self loathing
    This time you've gone too far
    Or could it be my nemesis
    That you're me?

    Enemy, take one good look at me
    you get what you will always be
    Tainted flesh, polluted soul
    Through a mirror I behold
    Throw a punch
    Shards bleed on the floor
    Tearing me apart but
    I don't care anymore
    Should I regret or ask myself
    Are you dead yet?

    [Laiho's solo]

    Enemy, take one good look at me
    you get what you will always be
    Tainted flesh, polluted soul
    Through a mirror I behold
    Throw a punch
    Shards bleed on the floor
    Tearing me apart but
    I don't care anymore
    Should I regret or ask myself
    Are you dead yet?

    Are you dead yet?

    Are you dead yet?
    Children of Bodom
    Are you Dead Yet?
    Tabbed by Taylor Smith
    Tuning - CGCFAD

    . - palm mute / - slide up to
    - slide down to - vibrato
    h - hammer on b - Bend
    p - pull off Suffixes for bend
    t - tap f - full bend h - half bend
    * - pinched harmonic q - quarter bend t - tap bend
    ^ - Hold bend r release bend
    x - Stuccatto - vibrato bend
    , - slight palm mute () - ghost note, sustained note
    " - tremolo note - Trill

    I tried submitting this a while ago, but it got rejected.
    so i came back and fixed a lot of it. it was definately not
    the easiest tab on earth... i put alexi's and roopes parts on top of each
    other so you can see how they corralate. everything is in
    chronological order. on the solo i used version 2's except
    for the beginning. i also included the rhythm part. no other tab included the
    rhythm part. this took me FOREVER to do...






    ____________

    INTRO
    ____________








    Alexi's part
    D|-------------------------------------------------------------------------------------|
    A|-------------------------------------------------------------------------------------|
    F|-------------------------------------------------------------------------------------|
    C|----------------------------------------8-------10-------8---------------------------|
    G|----5p0-5h6p5 ----5p0-5h6b8 ----5p0-5-6-8-6-5-6-8--6-5-6-8---5p0-5h6p5 ----5p0-5-8* -|
    C|--00------------00------------00---------------------------00------------00----------|
    .. .. .. , , , , , , .. ..
    D|---------------------------------------|
    A|---------------------------------------|
    F|------------------3----2-----------3-5-|
    C|-----------------3----2--0-1-0-1-0-3-5-|
    G|----5p0-5h6p5 --1----0---0-1-0-1-0-1-3-|
    C|--00-----------0----0----0-1-0-1-0-----|
    .. . . . . .



    Roope's Part
    D|-------------------------------------------------------------------------------------|
    A|-------------------------------------------------------------------------------------|
    F|-------------------------------------------------------------------------------------|
    C|--00--------------------------00-------------------------------------------------8* -|
    G|--00--------------------------00-----------------------------5p0-5h6p5 ----5p0-5-----|
    C|--00--------------------------00---------------------------00------------00----------|
    .. .. .. ..
    D|---------------------------------------|
    A|---------------------------------------|
    F|------------------3----2-----------3-5-|
    C|-----------------3----2--0-1-0-1-0-3-5-|
    G|----5p0-5h6p5 --1----0---0-1-0-1-0-1-3-|
    C|--00-----------0----0----0-1-0-1-0-----|
    .. . . . . .



    BOTH (on the pinch, alexi does one and roope does the other)
    D|-------------------------------------------------------------------------------------|
    A|-------------------------------------------------------------------------------------|
    F|-------------------------------------------------------------------------------------|
    C|----------------------------------------8-------10-------8-----------------------8* -|
    G|----5p0-5h6p5 ----5p0-5h6b8 ----5p0-5-6-8-6-5-6-8--6-5-6-8---5p0-5h6p5 ----5p0-5-8* -|
    C|--00------------00------------00---------------------------00------------00----------|
    .. .. .. , , , , , , .. ..
    D|-------------------------|
    A|-------------------------|
    F|------------------3----2-|
    C|-----------------3----2--|
    G|----5p0-5h6p5 --1----0---|
    C|--00-----------0----0----|

    D|-----------------------------------------------------|
    A|-----------------------------------------------------|
    F|-----------------------------------------------------|
    C|----7-7/87----7-7/8--------------8-------10-------8-|
    G|----5-5/65----5-5/6------5p0-5-6-8-6-5-6-8--6-5-6-8-|
    C|--00---------00---------00---------------------------|x2
    .. .. ..


    Alexi
    D|------13----13----13--13-------13----13----13--------|
    A|----17----17----17--13--17---17----17----17--13--13--|
    F|-----------------------------------------------12----|
    C|-----------------------------------------------------|
    G|-----------------------------------------------------|
    C|-----------------------------------------------------|


    Roope
    D|-----------------------------------------------------|
    A|-----------------------------------------------------|
    F|-----------------------------------------------------|
    C|--00----00----00-----------00----00----00------------|
    G|--00----00----00-----------00----00----00------------|
    C|--00----00----00-----------00----00----00--Pickslide-|
    .. .. .. .. .. ..


    Alexi
    D|------13----13----13--13-------13----13----13--------|
    A|----17----17----17--13--17---17----17----17--13--13--|
    F|-----------------------------------------------12----|
    C|-----------------------------------------------------|
    G|-----------------------------------------------------|
    C|-----------------------------------------------------|x2

    Roope
    D|---------------------------|
    A|---------------------------|
    F|--7--5--7--5---------------|
    C|--7--5--7--5--0--3--6--1---|
    G|--5--3--5--3--0--3--6--1---|
    C|--------------0--3--6--1---|Background of high riff







    __________

    Verse
    __________


    0:46








    Alexi
    D|-----------------------------------------------|
    A|-----------------------------------------------|
    F|-----------------------------------------------|
    C|-----------------------------------------------|
    G|--00--00--00--000--000--000----88----88----88--|
    C|--00--00--00--000--000--000----88----88----88--|
    .. .. .. ... ... ... .. .. ..
    Roope
    D|-----------------------------------------------|
    A|-----------------------------------------------|
    F|-----------------------------------------------|
    C|---------------------------------1010--1010----|
    G|----00--00----000--000--000------8-8---8-8-----|
    C|----00--00----000--000--000--------------------|
    .. .. ... ... ... . . . .

    Alexi
    D|------------------------------------17 -----------|
    A|---------------------------15----------------------|
    F|------------------14-------------------------------|
    C|-7^--------r12-15----12-15----12-15----------------|
    G|---------------------------------------------------|
    C|---------------------------------------------------|

    Roope
    D|------------------------------------22 -----------|
    A|---------------------------15----------------------|
    F|------------------14-------------------------------|
    C|-7^--------r12-15----12-15----12-15----------------|
    G|---------------------------------------------------|
    C|---------------------------------------------------|


    Alexi
    D|------13----13----13--13-------13----13----13--------|
    A|----17----17----17--13--17---17----17----17--13--13--|
    F|-----------------------------------------------12----|
    C|-----------------------------------------------------|
    G|-----------------------------------------------------|
    C|-----------------------------------------------------|


    Roope
    D|--------------|
    A|--------------|
    F|--7--5--7--5--|
    C|--7--5--7--5--|
    G|--5--3--5--3--|
    C|--------------|


    Alexi
    D|--------------------------------------------------|
    A|--------------------------------------------------|
    F|--------------------------------------------------|
    C|--------------------------------------------------|
    G|--00--00--00--00000-00000-00000---88----88----88--|
    C|--00--00--00--00000-00000-00000---88----88----88--|
    .. .. .. ..... ..... ..... .. .. ..
    Roope
    D|--------------------------------------------------|
    A|--------------------------------------------------|
    F|--------------------------------------------------|
    C|------------------------------------1010--1010----|
    G|----00--00----00000-00000-00000-----8-8---8-8-----|
    C|----00--00----00000-00000-00000-------------------|
    .. .. ..... ..... ..... . . . .

    BOTH
    D|---------------------------------------------|
    A|---------------------------------------------|
    F|---------------------------------------------|
    C|---------------------------------------------|
    G|--88888--1010101010--1212121212--1414141414--|
    C|--88888--1010101010--1212121212--1414141414--|
    ..... . . . . . . . . . . . . . . .

    Both
    D|-------------------|
    A|-------------------|
    F|-------------3--5--|
    C|--0-1-0-1-0--3--5--|
    G|--0-1-0-1-0--1--3--|
    C|--0-1-0-1-0--------|
    . . . . .








    ______________

    Post Verse
    ______________

    1:12







    BOTH (on the pinch, alexi does one and roope does the other)
    D|-------------------------------------------------------------------------------------|
    A|-------------------------------------------------------------------------------------|
    F|-------------------------------------------------------------------------------------|
    C|----------------------------------------8-------10-------8-----------------------8* -|
    G|----5p0-5h6p5 ----5p0-5h6b8 ----5p0-5-6-8-6-5-6-8--6-5-6-8---5p0-5h6p5 ----5p0-5-8* -|
    C|--00------------00------------00---------------------------00------------00----------|
    .. .. .. , , , , , , .. ..
    D|-------------------------|
    A|-------------------------|
    F|-------------------------|
    C|----------------5-7-8-10-|
    G|----5p0-5h6p5 --5-7-8-10-|
    C|--00------------5-7-8-10-|








    ________________

    Bridge Riff
    ________________

    1:22






    Alexi
    D|-----------------------------------------------------------------------------------------|
    A|-----------------------------------------------------------------------------------------|
    F|-------14-------14----14-/------17-----------12----/-------15-------15----15------10---|
    C|-12-12----12-12----12----/15-15----15--10-10----10-/-13-13----13-13----13-----8-8----8-|
    G|-----------------------------------------------------------------------------------------|
    C|-----------------------------------------------------------------------------------------|

    D|-------------|
    A|----------8--|
    F|-------7-----|
    C|-----8-------|
    G|--10---------|
    C|-------------|

    Roope
    D|-----------------------------------------------------------------------------------------|
    A|-----------------------------------------------------------------------------------------|
    F|-------10-------10----10-/------14----------12----/-------12-------12----12------7-----|
    C|-12-12----12-12----12----/15-15----15--14-14---14-/-13-13----13-13----13-----8-8----8--|
    G|-----------------------------------------------------------------------------------------|
    C|-----------------------------------------------------------------------------------------|

    D|-------------|
    A|-------11-10-|
    F|-------------|
    C|----12-------|
    G|--13---------|
    C|-------------|






    _____________

    Chorus
    _____________

    1:33






    BOTH
    D|----------------------------------------------------------------------------|
    A|----------------------------------------------------------------------------|
    F|----------------------------------------------------------------------------|
    C|--1 -7 -0 --3/10--1 --7 -0 -3--------1 --7 --0 --3/10--1 --7 --0 -3/10-|
    G|--1 -7 -0 --3/10--1 --7 -0 -3--------1 --7 --0 --3/10--1 --7 --0 -3/10-|
    C|--1 -7 -0 --3/10--1 --7 -0 -3--5* --1 --7 --0 --3/10--1 --7 --0 -3/10-|


    Anyone (?) it sounds like this is in the background
    D|------------------|with like a synth wah chorus effect or somethin
    A|--18p17h18p17h18--|you can decide for yourself.
    F|------------------|
    C|------------------|
    G|------------------|
    C|------------------|x many






    ________________

    Post Chorus
    ________________


    1:52





    Alexi
    D|------13----13----|
    A|----17----17------|
    F|------------------|
    C|------------------|
    G|------------------|
    C|------------------|

    Roope
    D|------------------|
    A|------------------|
    F|------------------|
    C|--00----00--------|
    G|--00----00--------|
    C|--00----00--------|
    .. ..






    ______________

    Verse
    ______________


    1:54






    Alexi
    D|-----------------------------------------------|
    A|-----------------------------------------------|
    F|-----------------------------------------------|
    C|-----------------------------------------------|
    G|--00--00--00--000--000--000----88----88----88--|
    C|--00--00--00--000--000--000----88----88----88--|
    .. .. .. ... ... ... .. .. ..
    Roope
    D|-----------------------------------------------|
    A|-----------------------------------------------|
    F|-----------------------------------------------|
    C|---------------------------------1010--1010----|
    G|----00--00----000--000--000------8-8---8-8-----|
    C|----00--00----000--000--000--------------------|
    .. .. ... ... ... . . . .

    Alexi
    D|------------------------------------17 -----------|
    A|---------------------------15----------------------|
    F|------------------14-------------------------------|
    C|-7^--------r12-15----12-15----12-15----------------|
    G|---------------------------------------------------|
    C|---------------------------------------------------|

    Roope
    D|------------------------------------22 -----------|
    A|---------------------------15----------------------|
    F|------------------14-------------------------------|
    C|-7^--------r12-15----12-15----12-15----------------|
    G|---------------------------------------------------|
    C|---------------------------------------------------|


    Alexi
    D|------13----13----13--13-------13----13----13--------|
    A|----17----17----17--13--17---17----17----17--13--13--|
    F|-----------------------------------------------12----|
    C|-----------------------------------------------------|
    G|-----------------------------------------------------|
    C|-----------------------------------------------------|

    Roope
    D|--------------|
    A|--------------|
    F|--------------|
    C|--0--3--2--1--|
    G|--0--3--2--1--|
    C|--0--3--2--1--|

    Alexi
    D|--------------------------------------------------|
    A|--------------------------------------------------|
    F|--------------------------------------------------|
    C|--------------------------------------------------|
    G|--00--00--00--00000-00000-00000---88----88----88--|
    C|--00--00--00--00000-00000-00000---88----88----88--|
    .. .. .. ..... ..... ..... .. .. ..
    Roope
    D|--------------------------------------------------|
    A|--------------------------------------------------|
    F|--------------------------------------------------|
    C|------------------------------------1010--1010----|
    G|----00--00----00000-00000-00000-----8-8---8-8-----|
    C|----00--00----00000-00000-00000-------------------|
    .. .. ..... ..... ..... . . . .

    BOTH
    D|---------------------------------------------|
    A|---------------------------------------------|
    F|---------------------------------------------|
    C|---------------------------------------------|
    G|--88888--1010101010--1212121212--1414141414--|
    C|--88888--1010101010--1212121212--1414141414--|
    ..... . . . . . . . . . . . . . . .

    Both
    D|---------------------|
    A|---------------------|
    F|----------------3-5--|
    C|-303030303030---3-5--|
    G|-303030303030---1-3--|
    C|-303030303030--------|
    ............




    _______________

    Chorus
    _______________

    2:21



    BOTH
    D|----------------------------------------------------------------------------|
    A|----------------------------------------------------------------------------|
    F|----------------------------------------------------------------------------|
    C|--1 -7 -0 --3/10--1 --7 -0 -3--------1 --7 --0 --3/10--1 --7 --0 -3/10-|
    G|--1 -7 -0 --3/10--1 --7 -0 -3--------1 --7 --0 --3/10--1 --7 --0 -3/10-|
    C|--1 -7 -0 --3/10--1 --7 -0 -3--5* --1 --7 --0 --3/10--1 --7 --0 -3/10-|


    Anyone (?) it sounds like this is in the background
    D|------------------|with like a synth wah chorus effect or somethin
    A|--18p17h18p17h18--|you can decide for yourself.
    F|------------------|
    C|------------------|
    G|------------------|
    C|------------------|x many


    BOTH
    D|----------------|
    A|----------------|
    F|----------------|
    C|----------------|
    G|-----6----7b8 -|
    C|--00---00-------|
    .. ..




    _________________

    Bridge Riff 2
    _________________


    2:41





    Alexi
    D|-----------------------------------------------------------------------------------------|
    A|-----------------------------------------------------------------------------------------|
    F|-------14-------14----14-/------17-----------12----/-------15-------15----15------10---|
    C|-12-12----12-12----12----/15-15----15--10-10----10-/-13-13----13-13----13-----8-8----8-|
    G|-----------------------------------------------------------------------------------------|
    C|-----------------------------------------------------------------------------------------|

    D|-------------|
    A|----------8--|
    F|-------7-----|
    C|-----8-------|
    G|--10---------|
    C|-------------|

    Roope
    D|-----------------------------------------------------------------------------------------|
    A|-----------------------------------------------------------------------------------------|
    F|-------10-------10----10-/------14----------12----/-------12-------12----12------7-----|
    C|-12-12----12-12----12----/15-15----15--14-14---14-/-13-13----13-13----13-----8-8----8--|
    G|-----------------------------------------------------------------------------------------|
    C|-----------------------------------------------------------------------------------------|

    D|-------------|
    A|-------11-10-|
    F|-------------|
    C|----12-------|
    G|--13---------|
    C|-------------|





    _____________

    Solo...
    _____________



    2:52


    Alexi
    D|------------------------19^-19^--|
    A|--15^ ---18^-17^--20^ -----------|
    F|---------------------------------|
    C|---------------------------------|
    G|---------------------------------|
    C|---------------------------------|

    D|------19-------19ph-/17--------19-22--------22ph-/21-------21-|
    A|---------17-17----------15-17--------20-20-----------19-19----|
    F|--------------------------------------------------------------|
    C|--------------------------------------------------------------|
    G|--------------------------------------------------------------|
    C|--------------------------------------------------------------|


    _________________________________VERYFAST___________________________________

    D|-20-17-19-20-19-17-------------17------------------------------------------|
    A|----------------20-19-17-19-20----20-19-17---------------------------------|
    F|-------------------------------------------19-20-17-19-20-19-17-------19-17|
    C|----------------------------------------------------------------19-17------|
    G|---------------------------------------------------------------------------|
    C|---------------------------------------------------------------------------|


    ___VERY FAST______
    | |
    D|---------------------17^-------r17^-------r15------22^------------r-|
    A|---------------------18^-------r18^-------r---17--------------------|
    F|---------------17---------------------------------------------------|
    C|-19-17----17-19-----------------------------------------------------|
    G|------19------------------------------------------------------------|
    C|--------------------------------------------------------------------|


    D|-17-13-------20-17-------17-13---------17-12-------------------------------|
    A|-------15----------18----------15------------13-----14^---r14^------r------|
    F|----------14----------19----------14------------14--14^---r14^------r12----|
    C|------------------------------------------------------------------------14-|
    G|---------------------------------------------------------------------------|
    C|---------------------------------------------------------------------------|


    D|---------------------------------------------------------------------------|
    A|-14^---r14^---r----------------------------------------13b--------13b--15b-|
    F|-14^---r14^---r-12----14-12-----------14b----12b---14b--------14b----------|
    C|-------------------14-------14---------------------------------------------|
    G|---------------------------------------------------------------------------|
    C|---------------------------------------------------------------------------|


    D|------------12b-------12b--15b----------|
    A|-13b----15-------15---------------------|
    F|----------------------------------------|
    C|----------------------------------------|
    G|----------------------------------------|
    C|----------------------------------------|



    Roope (background) same rythym as the bridge.
    D|----------------------------------------------------------------|
    A|----------------------------------------------------------------|
    F|----------------------------------------------------------------|
    C|----------------------------------------------------------------|
    G|--22-5-22-5-2-5--55-8-5--44-7-4--33-6-33-6-3-6--00-3-0--00-3-0--|
    C|--22-5-22-5-2-5--55-8-5--44-7-4--33-6-33-6-3-6--00-3-0--00-3-0--|x idk. figure it out.





    __________________

    Final Chorus
    __________________

    3:12


    BOTH
    D|-------------------------------------------------------------------------------------|
    A|-------------------------------------------------------------------------------------|
    F|-------------------------------------------------------------------------------------|
    C|--1 -7 -0 --3/10--1 --7 -0 -3--------1 --7 --0 --3/10--1 --7 --0 --------------|
    G|--1 -7 -0 --3/10--1 --7 -0 -3--------1 --7 --0 --3/10--1 --7 --0 -----6---7b8 -|
    C|--1 -7 -0 --3/10--1 --7 -0 -3--5* --1 --7 --0 --3/10--1 --7 --0 --00--00------|
    .. ..

    Anyone (?) it sounds like this is in the background
    D|------------------|with like a synth wah chorus effect or somethin
    A|--18p17h18p17h18--|you can decide for yourself.
    F|------------------|
    C|------------------|
    G|------------------|
    C|------------------|x many



    __________

    Outro
    __________

    3:32

    BOTH
    D|-----------------------------------------------------|
    A|-----------------------------------------------------|
    F|-----------------------------------------------------|
    C|----7-7/87----7-7/8--------------8-------10-------8-|
    G|----5-5/65----5-5/6------5p0-5-6-8-6-5-6-8--6-5-6-8-|
    C|--00---------00---------00---------------------------|
    .. .. ..

    BOTH
    D|-----------------------------------------------------|
    A|-------------------10* -----------------------------|
    F|-----------------------------------------------------|
    C|----7-7/87----7-7----------------8-------10-------8-|
    G|----5-5/65----5-5--------5p0-5-6-8-6-5-6-8--6-5-6-8-|
    C|--00---------00---------00---------------------------|
    .. .. ..

    BOTH
    D|-----------------------------------------------------|
    A|-----------------------------------------------------|
    F|-----------------------------------------------------|
    C|----7-7/87----7-7/8--------------8-------10-------8-|
    G|----5-5/65----5-5/6------5p0-5-6-8-6-5-6-8--6-5-6-8-|
    C|--00---------00---------00---------------------------|x2
    .. .. ..








    Oh man... i hope that was good. enjoy. leave comments and ratings PLEASE. cob rules.







    hay whats up, this is dday. im 14yrs old. i love skateboarding, playing hockey, and guitar. i love to play my xbox, live of course. i rock out on rock band and guitar hero. some day i want to join the military and fire department.



    They told him don't you ever come around here
    Don't wanna see your face, you better disappear
    The fire's in their eyes and their words are really clear
    So beat it, just beat it

    You better run, you better do what you can
    Don't wanna see no blood, don't be a macho man
    You wanna be tough, better do what you can
    So beat it, but you wanna be bad

    Just beat it, beat it, beat it, beat it
    No one wants to be defeated
    Showin' how funky and strong is your fight
    It doesn't matter who's wrong or right
    Just beat it, beat it
    Just beat it, beat it
    Just beat it, beat it
    Just beat it, beat it

    They're out to get you, better leave while you can
    Don't wanna be a boy, you wanna be a man
    You wanna stay alive, better do what you can
    So beat it, just beat it

    You have to show them that you're really not scared
    You're playin' with your life, this ain't no truth or dare
    They'll kick you, then they beat you,
    Then they'll tell you it's fair
    So beat it, but you wanna be bad

    Just beat it, beat it, beat it, beat it
    No one wants to be defeated
    Showin' how funky and strong is your fight
    It doesn't matter who's wrong or right

    Just beat it, beat it, beat it, beat it
    No one wants to be defeated
    Showin' how funky and strong is your fight
    It doesn't matter who's wrong or right

    Just beat it, beat it, beat it, beat it
    No one wants to be defeated
    Showin' how funky and strong is your fight
    It doesn't matter who's wrong or right
    Just beat it, beat it
    Beat it, beat it, beat it

    Beat it, beat it, beat it, beat it
    No one wants to be defeated
    Showin' how funky and strong is your fight
    It doesn't matter who's wrong or who's right

    Just beat it, beat it, beat it, beat it
    No one wants to be defeated
    Showin' how funky and strong is your fight
    It doesn't matter who's wrong or right

    Just beat it, beat it, beat it, beat it
    No one wants to be defeated
    Showin' how funky and strong is your fight
    It doesn't matter who's wrong or right
    Just beat it, beat it
    Beat it, beat it, beat it

    Beat it, beat it, beat it, beat it
    No one wants to be defeated
    Showin' how funky and strong is your fight
    It doesn't matter who's wrong or who's right

    Just beat it, beat it, beat it, beat it
    No one wants to be defeated
    Showin' how funky and strong is your fight
    It doesn't matter who's wrong or right

    Just beat it, beat it, beat it, beat it
    No one wants to be defeated
    Showin' how funky and strong is your fight
    It doesn't matter who's wrong or right

    Just beat it, beat it, beat it, beat it
    No one wants to be defeated
    Just beat it, beat it
    Beat it, beat it, beat it
  • My Photos

    skaterboy360 has created 8 photo galleries on GrindTV.

    fun

    fun

    5 years ago

    2 photos

    guitar

    guitar

    5 years ago

    1 photos

    blah

    blah

    6 years ago

    5 photos

  • 37 Comments

     1-20 of 37

    beautiful_jenna_marie101

    Posted by beautiful_jenna_marie101 April 23, 2012 06:27am PDTReply | Report Abuse

    thanks for the add some of girls on here have my pixs thats so messed up...

    punk_princess

    Posted by punk_princess December 6, 2010 01:34pm PSTReply | Report Abuse

    Hello :D Haha.

    skaterboy360

    Reply by skaterboy360 December 6, 2010 04:37pm PSTReport Abuse

    hey whats up

    punk_princess

    Posted by punk_princess December 6, 2010 01:33pm PSTReply | Report Abuse

    Hello :D Haha.

    born2_idk

    Posted by born2_idk August 11, 2010 06:15pm PDTReply | Report Abuse

    hey(:

    spezzia

    Posted by spezzia January 6, 2010 10:49am PSTReply | Report Abuse

    nice profile pic

    EmoJOEY

    Posted by EmoJOEY December 5, 2009 10:27am PSTReply | Report Abuse

    hey what up

    lexy324

    Posted by lexy324 August 23, 2009 11:58am PDTReply | Report Abuse

    your pic is funny check out my pro its sick

    sk8er cristal135

    Posted by sk8er cristal135 June 4, 2009 11:13pm PDTReply | Report Abuse

    hey kool pic lol =]

    melanie

    Posted by melanie March 29, 2009 12:08am PDTReply | Report Abuse

    hey whats up

    i_love_u

    Posted by i_love_u March 17, 2009 02:12pm PDTReply | Report Abuse

    HEY

    skaterboy360

    Reply by skaterboy360 March 17, 2009 03:17pm PDTReport Abuse

    what u up to?

    SUCKMYBALLS

    Posted by SUCKMYBALLS March 17, 2009 01:44pm PDTReply | Report Abuse

    hey dude what up?

    skaterboy360

    Reply by skaterboy360 March 17, 2009 02:00pm PDTReport Abuse

    nothing much. chillin. hbu?

    SUCKMYBALLS

    Posted by SUCKMYBALLS March 16, 2009 04:16pm PDTReply | Report Abuse

    what the fuck is going on?
    HAHAHAHAHAH WHO'S THE FAG?
    AND IM NOT RUDE, IM JUST DOING THE SAME SHIT PEOPLE EXAMPLE A. I_LOVE_YOU DID TO MY GIRLFRIEND!!!!!!

    skaterboy360

    Reply by skaterboy360 March 16, 2009 04:21pm PDTReport Abuse

    i know i read the comments thing.. ur a good bf to ur gf. u watch out 4 her...

    SUCKMYBALLS

    Posted by SUCKMYBALLS March 16, 2009 04:04pm PDTReply | Report Abuse

    dude you're a fucking jackass fuck off

    skaterboy360

    Reply by skaterboy360 March 16, 2009 04:06pm PDTReport Abuse

    im just saying.. i see comments u put on ppls profiles.. they can be a little harsh sometimes. i mean im sorry 4 saying it like that. i mean ur a cool guy..

    SUCKMYBALLS

    Reply by SUCKMYBALLS March 16, 2009 04:17pm PDTReport Abuse

    I'M KEEPING A CLOSE WATCH ON THOSE PRON PICS, THEY'RE PRICATE , SO ONLY FRIENDS CAN SEE THEM
    TAHANKS FOR CARING GAY FAG
    AND IF YOU'RE WANDERING WERE THEY ARE, THEY'RE AT
    REDTUBE.COM
    HIT ME UP
    LATES

    melanie

    Posted by melanie March 16, 2009 09:39am PDTReply | Report Abuse

    hey

    skaterboy360

    Reply by skaterboy360 March 16, 2009 04:14pm PDTReport Abuse

    hey

    melanie

    Reply by melanie March 16, 2009 04:18pm PDTReport Abuse

    watcha doin

    Yo Mamma

    Posted by Yo Mamma February 28, 2009 12:00am PSTReply | Report Abuse

    hey how do u get videos on ur profile?

    skaterboy360

    Reply by skaterboy360 February 28, 2009 07:41am PSTReport Abuse

    i searched videos i liked on myspace, then before sending them as a msg i hilighted them and did copy past on the grind box

    b0Rn2sk8

    Posted by b0Rn2sk8 February 26, 2009 02:41pm PSTReply | Report Abuse

    I LUV LINKIN PARK!!! ^_^

    SUCKMYBALLS

    Posted by SUCKMYBALLS February 18, 2009 02:05pm PSTReply | Report Abuse

    DUDE you 've got THE longest grindbox text ever!!!!!!!!!!!!

    skaterboy360

    Reply by skaterboy360 February 19, 2009 11:43am PSTReport Abuse

    thanks..... itll get longer.... trust me....lol

    SUCKMYBALLS

    Reply by SUCKMYBALLS February 19, 2009 03:18pm PSTReport Abuse

    HAHAHHAH LATER DUDE

    melanie

    Posted by melanie February 17, 2009 10:17am PSTReply | Report Abuse

    linkin park is awesome!!!!!

    skaterboy360

    Reply by skaterboy360 February 17, 2009 11:45am PSTReport Abuse

    yes!!!!

    abestie10

    Posted by abestie10 February 8, 2009 01:34pm PSTReply | Report Abuse

    heyy

    amber wedding

    Posted by amber wedding February 3, 2009 07:25am PSTReply | Report Abuse

    hay

    skaterboy360

    Reply by skaterboy360 February 3, 2009 12:40pm PSTReport Abuse

    heyyy

    amber wedding

    Reply by amber wedding February 7, 2009 02:11pm PSTReport Abuse

    anything new??

    Add a Comment

    2000 characters left. 2000 total.